ISO-10303-21;
HEADER;
/****************************************************************
 * Generated by software with PDElib inside                    *
 * PDElib Version v51a, created Wed 07/06/2011                  *
 * ITI Transcendata (http://www.transcendata.com/)              *
 ****************************************************************/
FILE_DESCRIPTION((''),'2;1');
FILE_NAME('Y:\\CAD\X2\30C730FC30BF\X0\\\AutoCAD\\\X2\8C9E5B89\X0\\\7.3D\\\X2\88FD54C156F3\X0\\\\X2\55B6696D4F9D983C5206\X0\\\5.OS\X2\30EA30FC30C97DDA\X0\\\E12.stp','2013-10-24T11:45:17',('4024630'),(''),'Autodesk Inventor 2012','Autodesk Inventor 2012','');
FILE_SCHEMA(('AUTOMOTIVE_DESIGN { 1 2 10303 214 0 1 1 1 }'));
ENDSEC;
DATA;
#5=APPLICATION_CONTEXT('automotive design');
#6=APPLICATION_PROTOCOL_DEFINITION('Draft International Standard','automotive_design',1998,#5);
#7=PRODUCT_CONTEXT('None',#5,'mechanical');
#8=PRODUCT('E12','E12','None',(#7));
#9=PRODUCT_RELATED_PRODUCT_CATEGORY('part','description',(#8));
#10=PRODUCT_DEFINITION_FORMATION('None','None',#8);
#11=PRODUCT_DEFINITION_CONTEXT('part definition',#5,'design');
#12=PRODUCT_DEFINITION('None','None',#10,#11);
#18=(NAMED_UNIT(*)PLANE_ANGLE_UNIT()SI_UNIT($,.RADIAN.));
#19=DIMENSIONAL_EXPONENTS(0.0,0.0,0.0,0.0,0.0,0.0,0.0);
#20=PLANE_ANGLE_MEASURE_WITH_UNIT(PLANE_ANGLE_MEASURE(0.0174532925),#18);
#24=(CONVERSION_BASED_UNIT('DEGREE',#20)NAMED_UNIT(#19)PLANE_ANGLE_UNIT());
#28=(NAMED_UNIT(*)SI_UNIT($,.STERADIAN.)SOLID_ANGLE_UNIT());
#32=(LENGTH_UNIT()NAMED_UNIT(*)SI_UNIT(.MILLI.,.METRE.));
#34=UNCERTAINTY_MEASURE_WITH_UNIT(LENGTH_MEASURE(0.01),#32,'DISTANCE_ACCURACY_VALUE','');
#36=(GEOMETRIC_REPRESENTATION_CONTEXT(3)GLOBAL_UNCERTAINTY_ASSIGNED_CONTEXT((#34))GLOBAL_UNIT_ASSIGNED_CONTEXT((#24,#28,#32))REPRESENTATION_CONTEXT('None','None'));
#37=AXIS2_PLACEMENT_3D('',#38,#39,#40);
#38=CARTESIAN_POINT('',(0.0,0.0,0.0));
#39=DIRECTION('',(0.0,0.0,1.0));
#40=DIRECTION('',(1.0,0.0,0.0));
#41=SHAPE_REPRESENTATION('',(#37,#306,#439,#565),#36);
#42=PRODUCT_DEFINITION_SHAPE('','',#12);
#43=SHAPE_DEFINITION_REPRESENTATION(#42,#41);
#44=APPLICATION_CONTEXT('automotive design');
#45=APPLICATION_PROTOCOL_DEFINITION('Draft International Standard','automotive_design',1998,#44);
#46=PRODUCT_CONTEXT('None',#44,'mechanical');
#47=PRODUCT('E12','E12','None',(#46));
#48=PRODUCT_RELATED_PRODUCT_CATEGORY('part','description',(#47));
#49=PRODUCT_DEFINITION_FORMATION('None','None',#47);
#50=PRODUCT_DEFINITION_CONTEXT('part definition',#44,'design');
#51=PRODUCT_DEFINITION('None','None',#49,#50);
#57=(NAMED_UNIT(*)PLANE_ANGLE_UNIT()SI_UNIT($,.RADIAN.));
#58=DIMENSIONAL_EXPONENTS(0.0,0.0,0.0,0.0,0.0,0.0,0.0);
#59=PLANE_ANGLE_MEASURE_WITH_UNIT(PLANE_ANGLE_MEASURE(0.0174532925),#57);
#63=(CONVERSION_BASED_UNIT('DEGREE',#59)NAMED_UNIT(#58)PLANE_ANGLE_UNIT());
#67=(NAMED_UNIT(*)SI_UNIT($,.STERADIAN.)SOLID_ANGLE_UNIT());
#71=(LENGTH_UNIT()NAMED_UNIT(*)SI_UNIT(.MILLI.,.METRE.));
#73=UNCERTAINTY_MEASURE_WITH_UNIT(LENGTH_MEASURE(0.01),#71,'DISTANCE_ACCURACY_VALUE','');
#75=(GEOMETRIC_REPRESENTATION_CONTEXT(3)GLOBAL_UNCERTAINTY_ASSIGNED_CONTEXT((#73))GLOBAL_UNIT_ASSIGNED_CONTEXT((#63,#67,#71))REPRESENTATION_CONTEXT('None','None'));
#76=AXIS2_PLACEMENT_3D('',#77,#78,#79);
#77=CARTESIAN_POINT('',(0.0,0.0,0.0));
#78=DIRECTION('',(0.0,0.0,1.0));
#79=DIRECTION('',(1.0,0.0,0.0));
#80=SHAPE_REPRESENTATION('',(#76),#75);
#81=PRODUCT_DEFINITION_SHAPE('','',#51);
#82=SHAPE_DEFINITION_REPRESENTATION(#81,#80);
#88=(NAMED_UNIT(*)PLANE_ANGLE_UNIT()SI_UNIT($,.RADIAN.));
#89=DIMENSIONAL_EXPONENTS(0.0,0.0,0.0,0.0,0.0,0.0,0.0);
#90=PLANE_ANGLE_MEASURE_WITH_UNIT(PLANE_ANGLE_MEASURE(0.0174532925),#88);
#94=(CONVERSION_BASED_UNIT('DEGREE',#90)NAMED_UNIT(#89)PLANE_ANGLE_UNIT());
#98=(NAMED_UNIT(*)SI_UNIT($,.STERADIAN.)SOLID_ANGLE_UNIT());
#102=(LENGTH_UNIT()NAMED_UNIT(*)SI_UNIT(.MILLI.,.METRE.));
#104=UNCERTAINTY_MEASURE_WITH_UNIT(LENGTH_MEASURE(0.000001),#102,'DISTANCE_ACCURACY_VALUE','');
#106=(GEOMETRIC_REPRESENTATION_CONTEXT(3)GLOBAL_UNCERTAINTY_ASSIGNED_CONTEXT((#104))GLOBAL_UNIT_ASSIGNED_CONTEXT((#94,#98,#102))REPRESENTATION_CONTEXT('','3D'));
#107=CARTESIAN_POINT('',(0.0,1.75,0.0));
#108=DIRECTION('',(0.0,0.0,1.0));
#109=DIRECTION('',(1.0,0.0,0.0));
#110=AXIS2_PLACEMENT_3D('',#107,#108,#109);
#111=CYLINDRICAL_SURFACE('',#110,0.3);
#112=CARTESIAN_POINT('',(-0.3,1.75,1.0));
#113=VERTEX_POINT('',#112);
#114=CARTESIAN_POINT('',(0.0,1.75,1.0));
#115=DIRECTION('',(0.0,0.0,-1.0));
#116=DIRECTION('',(1.0,0.0,0.0));
#117=AXIS2_PLACEMENT_3D('',#114,#115,#116);
#118=CIRCLE('',#117,0.3);
#119=EDGE_CURVE('',#113,#113,#118,.T.);
#120=ORIENTED_EDGE('',*,*,#119,.F.);
#121=EDGE_LOOP('',(#120));
#122=FACE_OUTER_BOUND('',#121,.T.);
#123=CARTESIAN_POINT('',(-0.3,1.75,0.0));
#124=VERTEX_POINT('',#123);
#125=CARTESIAN_POINT('',(0.0,1.75,0.0));
#126=DIRECTION('',(0.0,0.0,1.0));
#127=DIRECTION('',(1.0,0.0,0.0));
#128=AXIS2_PLACEMENT_3D('',#125,#126,#127);
#129=CIRCLE('',#128,0.3);
#130=EDGE_CURVE('',#124,#124,#129,.T.);
#131=ORIENTED_EDGE('',*,*,#130,.F.);
#132=EDGE_LOOP('',(#131));
#133=FACE_BOUND('',#132,.T.);
#134=ADVANCED_FACE('',(#122,#133),#111,.F.);
#135=CARTESIAN_POINT('',(0.0,1.75,1.0));
#136=DIRECTION('',(0.0,0.0,1.0));
#137=DIRECTION('',(1.0,0.0,0.0));
#138=AXIS2_PLACEMENT_3D('',#135,#136,#137);
#139=PLANE('',#138);
#140=ORIENTED_EDGE('',*,*,#119,.T.);
#141=EDGE_LOOP('',(#140));
#142=FACE_OUTER_BOUND('',#141,.T.);
#143=ADVANCED_FACE('',(#142),#139,.F.);
#144=CARTESIAN_POINT('',(0.0,-1.75,0.0));
#145=DIRECTION('',(0.0,0.0,1.0));
#146=DIRECTION('',(1.0,0.0,0.0));
#147=AXIS2_PLACEMENT_3D('',#144,#145,#146);
#148=CYLINDRICAL_SURFACE('',#147,0.3);
#149=CARTESIAN_POINT('',(-0.3,-1.75,1.0));
#150=VERTEX_POINT('',#149);
#151=CARTESIAN_POINT('',(0.0,-1.75,1.0));
#152=DIRECTION('',(0.0,0.0,-1.0));
#153=DIRECTION('',(1.0,0.0,0.0));
#154=AXIS2_PLACEMENT_3D('',#151,#152,#153);
#155=CIRCLE('',#154,0.3);
#156=EDGE_CURVE('',#150,#150,#155,.T.);
#157=ORIENTED_EDGE('',*,*,#156,.F.);
#158=EDGE_LOOP('',(#157));
#159=FACE_OUTER_BOUND('',#158,.T.);
#160=CARTESIAN_POINT('',(-0.3,-1.75,0.0));
#161=VERTEX_POINT('',#160);
#162=CARTESIAN_POINT('',(0.0,-1.75,0.0));
#163=DIRECTION('',(0.0,0.0,1.0));
#164=DIRECTION('',(1.0,0.0,0.0));
#165=AXIS2_PLACEMENT_3D('',#162,#163,#164);
#166=CIRCLE('',#165,0.3);
#167=EDGE_CURVE('',#161,#161,#166,.T.);
#168=ORIENTED_EDGE('',*,*,#167,.F.);
#169=EDGE_LOOP('',(#168));
#170=FACE_BOUND('',#169,.T.);
#171=ADVANCED_FACE('',(#159,#170),#148,.F.);
#172=CARTESIAN_POINT('',(0.0,-1.75,1.0));
#173=DIRECTION('',(0.0,0.0,1.0));
#174=DIRECTION('',(1.0,0.0,0.0));
#175=AXIS2_PLACEMENT_3D('',#172,#173,#174);
#176=PLANE('',#175);
#177=ORIENTED_EDGE('',*,*,#156,.T.);
#178=EDGE_LOOP('',(#177));
#179=FACE_OUTER_BOUND('',#178,.T.);
#180=ADVANCED_FACE('',(#179),#176,.F.);
#181=CARTESIAN_POINT('',(0.0,0.0,1.0));
#182=DIRECTION('',(0.0,0.0,-1.0));
#183=DIRECTION('',(-1.0,0.0,0.0));
#184=AXIS2_PLACEMENT_3D('',#181,#182,#183);
#185=TOROIDAL_SURFACE('',#184,4.100000000000001,0.3);
#186=CARTESIAN_POINT('',(4.0,-4.898425E-016,0.717157287525381));
#187=VERTEX_POINT('',#186);
#188=CARTESIAN_POINT('',(0.0,0.0,0.717157287525381));
#189=DIRECTION('',(0.0,0.0,-1.0));
#190=DIRECTION('',(-1.0,0.0,0.0));
#191=AXIS2_PLACEMENT_3D('',#188,#189,#190);
#192=CIRCLE('',#191,4.0);
#193=EDGE_CURVE('',#187,#187,#192,.T.);
#194=ORIENTED_EDGE('',*,*,#193,.F.);
#195=EDGE_LOOP('',(#194));
#196=FACE_OUTER_BOUND('',#195,.T.);
#197=CARTESIAN_POINT('',(4.0,4.898425E-016,1.282842712474619));
#198=VERTEX_POINT('',#197);
#199=CARTESIAN_POINT('',(0.0,0.0,1.282842712474619));
#200=DIRECTION('',(0.0,0.0,1.0));
#201=DIRECTION('',(-1.0,0.0,0.0));
#202=AXIS2_PLACEMENT_3D('',#199,#200,#201);
#203=CIRCLE('',#202,4.0);
#204=EDGE_CURVE('',#198,#198,#203,.T.);
#205=ORIENTED_EDGE('',*,*,#204,.F.);
#206=EDGE_LOOP('',(#205));
#207=FACE_BOUND('',#206,.T.);
#208=ADVANCED_FACE('',(#196,#207),#185,.F.);
#209=CARTESIAN_POINT('',(0.0,0.0,0.0));
#210=DIRECTION('',(0.0,0.0,1.0));
#211=DIRECTION('',(-1.0,0.0,0.0));
#212=AXIS2_PLACEMENT_3D('',#209,#210,#211);
#213=CYLINDRICAL_SURFACE('',#212,4.0);
#214=CARTESIAN_POINT('',(4.0,4.898587E-016,0.0));
#215=VERTEX_POINT('',#214);
#216=CARTESIAN_POINT('',(0.0,0.0,0.0));
#217=DIRECTION('',(0.0,0.0,-1.0));
#218=DIRECTION('',(-1.0,0.0,0.0));
#219=AXIS2_PLACEMENT_3D('',#216,#217,#218);
#220=CIRCLE('',#219,4.0);
#221=EDGE_CURVE('',#215,#215,#220,.T.);
#222=ORIENTED_EDGE('',*,*,#221,.F.);
#223=EDGE_LOOP('',(#222));
#224=FACE_OUTER_BOUND('',#223,.T.);
#225=ORIENTED_EDGE('',*,*,#193,.T.);
#226=EDGE_LOOP('',(#225));
#227=FACE_BOUND('',#226,.T.);
#228=ADVANCED_FACE('',(#224,#227),#213,.T.);
#229=CARTESIAN_POINT('',(0.0,0.0,11.800000000000001));
#230=DIRECTION('',(0.0,0.0,-1.0));
#231=DIRECTION('',(-1.0,0.0,0.0));
#232=AXIS2_PLACEMENT_3D('',#229,#230,#231);
#233=TOROIDAL_SURFACE('',#232,3.8,0.2);
#234=CARTESIAN_POINT('',(3.8,-4.653504E-016,12.000000000000002));
#235=VERTEX_POINT('',#234);
#236=CARTESIAN_POINT('',(0.0,0.0,12.000000000000002));
#237=DIRECTION('',(0.0,0.0,-1.0));
#238=DIRECTION('',(-1.0,0.0,0.0));
#239=AXIS2_PLACEMENT_3D('',#236,#237,#238);
#240=CIRCLE('',#239,3.8);
#241=EDGE_CURVE('',#235,#235,#240,.T.);
#242=ORIENTED_EDGE('',*,*,#241,.T.);
#243=EDGE_LOOP('',(#242));
#244=FACE_OUTER_BOUND('',#243,.T.);
#245=CARTESIAN_POINT('',(4.0,4.898425E-016,11.800000000000001));
#246=VERTEX_POINT('',#245);
#247=CARTESIAN_POINT('',(0.0,0.0,11.800000000000001));
#248=DIRECTION('',(0.0,0.0,1.0));
#249=DIRECTION('',(-1.0,0.0,0.0));
#250=AXIS2_PLACEMENT_3D('',#247,#248,#249);
#251=CIRCLE('',#250,4.0);
#252=EDGE_CURVE('',#246,#246,#251,.T.);
#253=ORIENTED_EDGE('',*,*,#252,.T.);
#254=EDGE_LOOP('',(#253));
#255=FACE_BOUND('',#254,.T.);
#256=ADVANCED_FACE('',(#244,#255),#233,.T.);
#257=CARTESIAN_POINT('',(0.0,0.0,0.0));
#258=DIRECTION('',(0.0,0.0,1.0));
#259=DIRECTION('',(-1.0,0.0,0.0));
#260=AXIS2_PLACEMENT_3D('',#257,#258,#259);
#261=CYLINDRICAL_SURFACE('',#260,4.0);
#262=ORIENTED_EDGE('',*,*,#204,.T.);
#263=EDGE_LOOP('',(#262));
#264=FACE_OUTER_BOUND('',#263,.T.);
#265=ORIENTED_EDGE('',*,*,#252,.F.);
#266=EDGE_LOOP('',(#265));
#267=FACE_BOUND('',#266,.T.);
#268=ADVANCED_FACE('',(#264,#267),#261,.T.);
#269=CARTESIAN_POINT('',(0.0,0.0,12.000000000000002));
#270=DIRECTION('',(0.0,0.0,-1.0));
#271=DIRECTION('',(-1.0,0.0,0.0));
#272=AXIS2_PLACEMENT_3D('',#269,#270,#271);
#273=PLANE('',#272);
#274=ORIENTED_EDGE('',*,*,#241,.F.);
#275=EDGE_LOOP('',(#274));
#276=FACE_OUTER_BOUND('',#275,.T.);
#277=ADVANCED_FACE('',(#276),#273,.F.);
#278=CARTESIAN_POINT('',(0.0,0.0,0.0));
#279=DIRECTION('',(0.0,0.0,-1.0));
#280=DIRECTION('',(-1.0,0.0,0.0));
#281=AXIS2_PLACEMENT_3D('',#278,#279,#280);
#282=PLANE('',#281);
#283=ORIENTED_EDGE('',*,*,#221,.T.);
#284=EDGE_LOOP('',(#283));
#285=FACE_OUTER_BOUND('',#284,.T.);
#286=ORIENTED_EDGE('',*,*,#130,.T.);
#287=EDGE_LOOP('',(#286));
#288=FACE_BOUND('',#287,.T.);
#289=ORIENTED_EDGE('',*,*,#167,.T.);
#290=EDGE_LOOP('',(#289));
#291=FACE_BOUND('',#290,.T.);
#292=ADVANCED_FACE('',(#285,#288,#291),#282,.T.);
#293=CLOSED_SHELL('',(#134,#143,#171,#180,#208,#228,#256,#268,#277,#292));
#294=MANIFOLD_SOLID_BREP('\X2\30BD30EA30C330C9\X0\1',#293);
#295=COLOUR_RGB('Rubber (Black)',0.309803992509842,0.309803992509842,0.309803992509842);
#296=FILL_AREA_STYLE_COLOUR('Rubber (Black)',#295);
#297=FILL_AREA_STYLE('Rubber (Black)',(#296));
#298=SURFACE_STYLE_FILL_AREA(#297);
#299=SURFACE_SIDE_STYLE('Rubber (Black)',(#298));
#300=SURFACE_STYLE_USAGE(.BOTH.,#299);
#301=PRESENTATION_STYLE_ASSIGNMENT((#300));
#302=STYLED_ITEM('',(#301),#294);
#303=MECHANICAL_DESIGN_GEOMETRIC_PRESENTATION_REPRESENTATION('',(#302,#436,#562),#36);
#304=ADVANCED_BREP_SHAPE_REPRESENTATION('ABSR',(#294),#75);
#305=SHAPE_REPRESENTATION_RELATIONSHIP('SRR','None',#304,#80);
#306=AXIS2_PLACEMENT_3D('',#307,#308,#309);
#307=CARTESIAN_POINT('',(0.0,0.0,0.0));
#308=DIRECTION('',(0.0,0.0,1.0));
#309=DIRECTION('',(1.0,0.0,0.0));
#310=NEXT_ASSEMBLY_USAGE_OCCURRENCE('E12:1','E12:1','E12:1',#12,#51,'E12:1');
#311=PRODUCT_DEFINITION_SHAPE('E12:1','E12:1',#310);
#312=ITEM_DEFINED_TRANSFORMATION('E12:1','E12:1',#76,#306);
#316=(REPRESENTATION_RELATIONSHIP('E12:1','E12:1',#80,#41)REPRESENTATION_RELATIONSHIP_WITH_TRANSFORMATION(#312)SHAPE_REPRESENTATION_RELATIONSHIP());
#317=CONTEXT_DEPENDENT_SHAPE_REPRESENTATION(#316,#311);
#318=APPLICATION_CONTEXT('automotive design');
#319=APPLICATION_PROTOCOL_DEFINITION('Draft International Standard','automotive_design',1998,#318);
#320=PRODUCT_CONTEXT('None',#318,'mechanical');
#321=PRODUCT('0.6-','0.6-','None',(#320));
#322=PRODUCT_RELATED_PRODUCT_CATEGORY('part','description',(#321));
#323=PRODUCT_DEFINITION_FORMATION('None','None',#321);
#324=PRODUCT_DEFINITION_CONTEXT('part definition',#318,'design');
#325=PRODUCT_DEFINITION('None','None',#323,#324);
#331=(NAMED_UNIT(*)PLANE_ANGLE_UNIT()SI_UNIT($,.RADIAN.));
#332=DIMENSIONAL_EXPONENTS(0.0,0.0,0.0,0.0,0.0,0.0,0.0);
#333=PLANE_ANGLE_MEASURE_WITH_UNIT(PLANE_ANGLE_MEASURE(0.0174532925),#331);
#337=(CONVERSION_BASED_UNIT('DEGREE',#333)NAMED_UNIT(#332)PLANE_ANGLE_UNIT());
#341=(NAMED_UNIT(*)SI_UNIT($,.STERADIAN.)SOLID_ANGLE_UNIT());
#345=(LENGTH_UNIT()NAMED_UNIT(*)SI_UNIT(.MILLI.,.METRE.));
#347=UNCERTAINTY_MEASURE_WITH_UNIT(LENGTH_MEASURE(0.01),#345,'DISTANCE_ACCURACY_VALUE','');
#349=(GEOMETRIC_REPRESENTATION_CONTEXT(3)GLOBAL_UNCERTAINTY_ASSIGNED_CONTEXT((#347))GLOBAL_UNIT_ASSIGNED_CONTEXT((#337,#341,#345))REPRESENTATION_CONTEXT('None','None'));
#350=AXIS2_PLACEMENT_3D('',#351,#352,#353);
#351=CARTESIAN_POINT('',(0.0,0.0,0.0));
#352=DIRECTION('',(0.0,0.0,1.0));
#353=DIRECTION('',(1.0,0.0,0.0));
#354=SHAPE_REPRESENTATION('',(#350),#349);
#355=PRODUCT_DEFINITION_SHAPE('','',#325);
#356=SHAPE_DEFINITION_REPRESENTATION(#355,#354);
#362=(NAMED_UNIT(*)PLANE_ANGLE_UNIT()SI_UNIT($,.RADIAN.));
#363=DIMENSIONAL_EXPONENTS(0.0,0.0,0.0,0.0,0.0,0.0,0.0);
#364=PLANE_ANGLE_MEASURE_WITH_UNIT(PLANE_ANGLE_MEASURE(0.0174532925),#362);
#368=(CONVERSION_BASED_UNIT('DEGREE',#364)NAMED_UNIT(#363)PLANE_ANGLE_UNIT());
#372=(NAMED_UNIT(*)SI_UNIT($,.STERADIAN.)SOLID_ANGLE_UNIT());
#376=(LENGTH_UNIT()NAMED_UNIT(*)SI_UNIT(.MILLI.,.METRE.));
#378=UNCERTAINTY_MEASURE_WITH_UNIT(LENGTH_MEASURE(0.000001),#376,'DISTANCE_ACCURACY_VALUE','');
#380=(GEOMETRIC_REPRESENTATION_CONTEXT(3)GLOBAL_UNCERTAINTY_ASSIGNED_CONTEXT((#378))GLOBAL_UNIT_ASSIGNED_CONTEXT((#368,#372,#376))REPRESENTATION_CONTEXT('','3D'));
#381=CARTESIAN_POINT('',(0.0,0.0,0.0));
#382=DIRECTION('',(0.0,0.0,1.0));
#383=DIRECTION('',(-1.0,0.0,0.0));
#384=AXIS2_PLACEMENT_3D('',#381,#382,#383);
#385=CYLINDRICAL_SURFACE('',#384,0.3);
#386=CARTESIAN_POINT('',(0.3,3.673940E-017,16.0));
#387=VERTEX_POINT('',#386);
#388=CARTESIAN_POINT('',(0.0,0.0,16.0));
#389=DIRECTION('',(0.0,0.0,-1.0));
#390=DIRECTION('',(-1.0,0.0,0.0));
#391=AXIS2_PLACEMENT_3D('',#388,#389,#390);
#392=CIRCLE('',#391,0.3);
#393=EDGE_CURVE('',#387,#387,#392,.T.);
#394=ORIENTED_EDGE('',*,*,#393,.T.);
#395=EDGE_LOOP('',(#394));
#396=FACE_OUTER_BOUND('',#395,.T.);
#397=CARTESIAN_POINT('',(0.3,3.673940E-017,0.0));
#398=VERTEX_POINT('',#397);
#399=CARTESIAN_POINT('',(0.0,0.0,0.0));
#400=DIRECTION('',(0.0,0.0,-1.0));
#401=DIRECTION('',(-1.0,0.0,0.0));
#402=AXIS2_PLACEMENT_3D('',#399,#400,#401);
#403=CIRCLE('',#402,0.3);
#404=EDGE_CURVE('',#398,#398,#403,.T.);
#405=ORIENTED_EDGE('',*,*,#404,.F.);
#406=EDGE_LOOP('',(#405));
#407=FACE_BOUND('',#406,.T.);
#408=ADVANCED_FACE('',(#396,#407),#385,.T.);
#409=CARTESIAN_POINT('',(0.0,0.0,16.0));
#410=DIRECTION('',(0.0,0.0,-1.0));
#411=DIRECTION('',(-1.0,0.0,0.0));
#412=AXIS2_PLACEMENT_3D('',#409,#410,#411);
#413=PLANE('',#412);
#414=ORIENTED_EDGE('',*,*,#393,.F.);
#415=EDGE_LOOP('',(#414));
#416=FACE_OUTER_BOUND('',#415,.T.);
#417=ADVANCED_FACE('',(#416),#413,.F.);
#418=CARTESIAN_POINT('',(0.0,0.0,0.0));
#419=DIRECTION('',(0.0,0.0,-1.0));
#420=DIRECTION('',(-1.0,0.0,0.0));
#421=AXIS2_PLACEMENT_3D('',#418,#419,#420);
#422=PLANE('',#421);
#423=ORIENTED_EDGE('',*,*,#404,.T.);
#424=EDGE_LOOP('',(#423));
#425=FACE_OUTER_BOUND('',#424,.T.);
#426=ADVANCED_FACE('',(#425),#422,.T.);
#427=CLOSED_SHELL('',(#408,#417,#426));
#428=MANIFOLD_SOLID_BREP('\X2\30BD30EA30C330C9\X0\1',#427);
#429=COLOUR_RGB('Aluminum (Flat)',0.847059011459351,0.839215993881226,0.839215993881226);
#430=FILL_AREA_STYLE_COLOUR('Aluminum (Flat)',#429);
#431=FILL_AREA_STYLE('Aluminum (Flat)',(#430));
#432=SURFACE_STYLE_FILL_AREA(#431);
#433=SURFACE_SIDE_STYLE('Aluminum (Flat)',(#432));
#434=SURFACE_STYLE_USAGE(.BOTH.,#433);
#435=PRESENTATION_STYLE_ASSIGNMENT((#434));
#436=STYLED_ITEM('',(#435),#428);
#437=ADVANCED_BREP_SHAPE_REPRESENTATION('ABSR',(#428),#349);
#438=SHAPE_REPRESENTATION_RELATIONSHIP('SRR','None',#437,#354);
#439=AXIS2_PLACEMENT_3D('',#440,#441,#442);
#440=CARTESIAN_POINT('',(0.0,-1.75,-15.0));
#441=DIRECTION('',(0.0,0.0,1.0));
#442=DIRECTION('',(1.0,0.0,0.0));
#443=NEXT_ASSEMBLY_USAGE_OCCURRENCE('0.6-:1','0.6-:1','0.6-:1',#12,#325,'0.6-:1');
#444=PRODUCT_DEFINITION_SHAPE('0.6-:1','0.6-:1',#443);
#445=ITEM_DEFINED_TRANSFORMATION('0.6-:1','0.6-:1',#350,#439);
#449=(REPRESENTATION_RELATIONSHIP('0.6-:1','0.6-:1',#354,#41)REPRESENTATION_RELATIONSHIP_WITH_TRANSFORMATION(#445)SHAPE_REPRESENTATION_RELATIONSHIP());
#450=CONTEXT_DEPENDENT_SHAPE_REPRESENTATION(#449,#444);
#451=APPLICATION_CONTEXT('automotive design');
#452=APPLICATION_PROTOCOL_DEFINITION('Draft International Standard','automotive_design',1998,#451);
#453=PRODUCT_CONTEXT('None',#451,'mechanical');
#454=PRODUCT('0.6+','0.6+','None',(#453));
#455=PRODUCT_RELATED_PRODUCT_CATEGORY('part','description',(#454));
#456=PRODUCT_DEFINITION_FORMATION('None','None',#454);
#457=PRODUCT_DEFINITION_CONTEXT('part definition',#451,'design');
#458=PRODUCT_DEFINITION('None','None',#456,#457);
#464=(NAMED_UNIT(*)PLANE_ANGLE_UNIT()SI_UNIT($,.RADIAN.));
#465=DIMENSIONAL_EXPONENTS(0.0,0.0,0.0,0.0,0.0,0.0,0.0);
#466=PLANE_ANGLE_MEASURE_WITH_UNIT(PLANE_ANGLE_MEASURE(0.0174532925),#464);
#470=(CONVERSION_BASED_UNIT('DEGREE',#466)NAMED_UNIT(#465)PLANE_ANGLE_UNIT());
#474=(NAMED_UNIT(*)SI_UNIT($,.STERADIAN.)SOLID_ANGLE_UNIT());
#478=(LENGTH_UNIT()NAMED_UNIT(*)SI_UNIT(.MILLI.,.METRE.));
#480=UNCERTAINTY_MEASURE_WITH_UNIT(LENGTH_MEASURE(0.01),#478,'DISTANCE_ACCURACY_VALUE','');
#482=(GEOMETRIC_REPRESENTATION_CONTEXT(3)GLOBAL_UNCERTAINTY_ASSIGNED_CONTEXT((#480))GLOBAL_UNIT_ASSIGNED_CONTEXT((#470,#474,#478))REPRESENTATION_CONTEXT('None','None'));
#483=AXIS2_PLACEMENT_3D('',#484,#485,#486);
#484=CARTESIAN_POINT('',(0.0,0.0,0.0));
#485=DIRECTION('',(0.0,0.0,1.0));
#486=DIRECTION('',(1.0,0.0,0.0));
#487=SHAPE_REPRESENTATION('',(#483),#482);
#488=PRODUCT_DEFINITION_SHAPE('','',#458);
#489=SHAPE_DEFINITION_REPRESENTATION(#488,#487);
#495=(NAMED_UNIT(*)PLANE_ANGLE_UNIT()SI_UNIT($,.RADIAN.));
#496=DIMENSIONAL_EXPONENTS(0.0,0.0,0.0,0.0,0.0,0.0,0.0);
#497=PLANE_ANGLE_MEASURE_WITH_UNIT(PLANE_ANGLE_MEASURE(0.0174532925),#495);
#501=(CONVERSION_BASED_UNIT('DEGREE',#497)NAMED_UNIT(#496)PLANE_ANGLE_UNIT());
#505=(NAMED_UNIT(*)SI_UNIT($,.STERADIAN.)SOLID_ANGLE_UNIT());
#509=(LENGTH_UNIT()NAMED_UNIT(*)SI_UNIT(.MILLI.,.METRE.));
#511=UNCERTAINTY_MEASURE_WITH_UNIT(LENGTH_MEASURE(0.000001),#509,'DISTANCE_ACCURACY_VALUE','');
#513=(GEOMETRIC_REPRESENTATION_CONTEXT(3)GLOBAL_UNCERTAINTY_ASSIGNED_CONTEXT((#511))GLOBAL_UNIT_ASSIGNED_CONTEXT((#501,#505,#509))REPRESENTATION_CONTEXT('','3D'));
#514=CARTESIAN_POINT('',(0.0,0.0,0.0));
#515=DIRECTION('',(0.0,0.0,1.0));
#516=DIRECTION('',(-1.0,0.0,0.0));
#517=AXIS2_PLACEMENT_3D('',#514,#515,#516);
#518=CYLINDRICAL_SURFACE('',#517,0.3);
#519=CARTESIAN_POINT('',(0.3,3.673940E-017,20.0));
#520=VERTEX_POINT('',#519);
#521=CARTESIAN_POINT('',(0.0,0.0,20.0));
#522=DIRECTION('',(0.0,0.0,-1.0));
#523=DIRECTION('',(-1.0,0.0,0.0));
#524=AXIS2_PLACEMENT_3D('',#521,#522,#523);
#525=CIRCLE('',#524,0.3);
#526=EDGE_CURVE('',#520,#520,#525,.T.);
#527=ORIENTED_EDGE('',*,*,#526,.T.);
#528=EDGE_LOOP('',(#527));
#529=FACE_OUTER_BOUND('',#528,.T.);
#530=CARTESIAN_POINT('',(0.3,3.673940E-017,0.0));
#531=VERTEX_POINT('',#530);
#532=CARTESIAN_POINT('',(0.0,0.0,0.0));
#533=DIRECTION('',(0.0,0.0,-1.0));
#534=DIRECTION('',(-1.0,0.0,0.0));
#535=AXIS2_PLACEMENT_3D('',#532,#533,#534);
#536=CIRCLE('',#535,0.3);
#537=EDGE_CURVE('',#531,#531,#536,.T.);
#538=ORIENTED_EDGE('',*,*,#537,.F.);
#539=EDGE_LOOP('',(#538));
#540=FACE_BOUND('',#539,.T.);
#541=ADVANCED_FACE('',(#529,#540),#518,.T.);
#542=CARTESIAN_POINT('',(0.0,0.0,20.0));
#543=DIRECTION('',(0.0,0.0,-1.0));
#544=DIRECTION('',(-1.0,0.0,0.0));
#545=AXIS2_PLACEMENT_3D('',#542,#543,#544);
#546=PLANE('',#545);
#547=ORIENTED_EDGE('',*,*,#526,.F.);
#548=EDGE_LOOP('',(#547));
#549=FACE_OUTER_BOUND('',#548,.T.);
#550=ADVANCED_FACE('',(#549),#546,.F.);
#551=CARTESIAN_POINT('',(0.0,0.0,0.0));
#552=DIRECTION('',(0.0,0.0,-1.0));
#553=DIRECTION('',(-1.0,0.0,0.0));
#554=AXIS2_PLACEMENT_3D('',#551,#552,#553);
#555=PLANE('',#554);
#556=ORIENTED_EDGE('',*,*,#537,.T.);
#557=EDGE_LOOP('',(#556));
#558=FACE_OUTER_BOUND('',#557,.T.);
#559=ADVANCED_FACE('',(#558),#555,.T.);
#560=CLOSED_SHELL('',(#541,#550,#559));
#561=MANIFOLD_SOLID_BREP('\X2\30BD30EA30C330C9\X0\1',#560);
#562=STYLED_ITEM('',(#435),#561);
#563=ADVANCED_BREP_SHAPE_REPRESENTATION('ABSR',(#561),#482);
#564=SHAPE_REPRESENTATION_RELATIONSHIP('SRR','None',#563,#487);
#565=AXIS2_PLACEMENT_3D('',#566,#567,#568);
#566=CARTESIAN_POINT('',(0.0,1.75,-19.0));
#567=DIRECTION('',(0.0,0.0,1.0));
#568=DIRECTION('',(0.510787075102645,-0.859707254772279,0.0));
#569=NEXT_ASSEMBLY_USAGE_OCCURRENCE('0.6+:1','0.6+:1','0.6+:1',#12,#458,'0.6+:1');
#570=PRODUCT_DEFINITION_SHAPE('0.6+:1','0.6+:1',#569);
#571=ITEM_DEFINED_TRANSFORMATION('0.6+:1','0.6+:1',#483,#565);
#575=(REPRESENTATION_RELATIONSHIP('0.6+:1','0.6+:1',#487,#41)REPRESENTATION_RELATIONSHIP_WITH_TRANSFORMATION(#571)SHAPE_REPRESENTATION_RELATIONSHIP());
#576=CONTEXT_DEPENDENT_SHAPE_REPRESENTATION(#575,#570);
ENDSEC;
END-ISO-10303-21;
